Bi Öyle Bi Böyle
Ton
Yazı Büyüklüğü
İntro Tab
e|-----------------------------------------------3-4-3-1--------|
B|--1-1-3-4-3-1-3----------------1-1-3-4-3-1-3-------------4-3--|
G|------------------1-3-4-3---0---------------------------------|
D|--------------------------------------------------------------|
A|--------------------------------------------------------------|
E|--------------------------------------------------------------|

e|----------------------------8-7-8--10-8-7-8-------------------|
B|---1-1-3-4-3-1-3---4---7-8------------------------------------|
G|--------------------------------------------------------------|
D|--------------------------------------------------------------|
A|--------------------------------------------------------------|
E|--------------------------------------------------------------|

Yada tabsız intro:
Cm-Ab-G // Cm-Ab-G // Fm-Ab-G // Cm-Ab-G

Cm                  Ab   G
Bi öyle bi böyle
Cm                                 Ab   G
Ben kimim anlarsan söyle
Fm                                   Ab   G
Sırtımda taş, elimde boş bir kutu
Cm                            Ab      G
İstersem sevebilirim bu oyunu


Cm                           
Bi masanın etrafında türlü türlü hayvanlar
Ab                                G
Maskeli gibi değişiğiz öyle böyle tripler
Cm
Zaman bizden geride kalmış çıktığımız yokuşta
Ab                                   G
Sırası gelen lafını ediyo, elimizde kartlar
Cm                         Ab                        G
Az desem yetmez, çok demeye dilim varmaz
Cm
Kaça kaça sıkışıverdik öküzün kıçındayız
Ab                            G
Lafını tartıp iyi seç, oturmayalım boynuza
Cm                                                                    Ab
Türlü kumpas, türlü vicdansızlık her yanında insanın
                         G
Bazen diyorum bazen kadir
Cm
Maymun olsam daha mı mutlu olurdum?
Ab                                         G
Yoksa zaten insan sıfatında bi maymunun götü müyüm?
Cm
Emine hanım teyzenin kırk yıllık çöpü müyüm?
Ab                                G
Umutsuzluk idolü mü, beklenmedik depar mı?
Cm
Standart bi hödük mü, gizli kararlılık mı?
Ab                                  G
Siyah beyaz düz yamuk ahmet mehmet kimim ben?


Cm                  Ab   G
Bi öyle bi böyle
Cm                                 Ab   G
Ben kimim anlarsan söyle
Fm                                   Ab   G
Sırtımda taş, elimde boş bir kutu
Cm                            Ab      G
İstersem sevebilirim bu oyunu


Cm
E şimdi üç saattir oturmuşuz dinlemişiz falan
Ab                               G
Beş asırdır oturmuşuz dinlemişiz falan
Cm
Ben ne kadar manyağım yo en çok ben çılgınım
Ab                                      G
Sana buraya yazıyom bak o kada çılgın diilsin

Cm
Eteğimde taşlarla etrafımda dönerken
Ab                             G
Kaç tanesi fırladı da oturdu kafalara
Cm
Kafalara kafalara, değişik kafalara 
Ab                            G
Yeni yeni paketlerle süslenmiş kafalara
Cm
Hayal et, iste, bekle, çabala
Ab                            G
Hababam yine bize döner aynı makara
Cm
Çok eşyalı odalarda huzuru bekliyoruz
Ab                          G
Elimizde tasmalar, karşılıklı sallıyoruz


Cm                  Ab   G
Bi öyle bi böyle
Cm                                 Ab   G
Ben kimim anlarsan söyle
Fm                                   Ab   G
Sırtımda taş, elimde boş bir kutu
Cm                            Ab      G
İstersem sevebilirim bu oyunu